Jason (jcreed) wrote,
Jason
jcreed

Messing around on the guitar this morning yielded a fun little pattern:


MIDI, PDF, tab:

 Dm       C       G                C        G       Am               Dm
 1-|------0---------|--------------0-|----------------|--------------1-|
 --|--3-------1---3-|------3---------|--1---3-------1-|------1---------|
 --|----2-------0---|--0-------0-----|----0-----0-----|--2-------2-----|
 --|0---------------|----0-------0---|------------0---|----2-------2---|
 --|--------3-------|--------2-------|3---------------|0---------------|
 --|----------------|3---------------|--------3-------|--------0-------|
          C       G                C*               A7               Dm
   |------0---------|----------------|----------------|--------------1-|
   |--3-------1---3-|------3-------1-|------1-------2-|------2---------|
   |----2-------0---|--0-------0-----|--0-------0-----|--0-------0-----|
   |0---------------|----0-------0---|----2-------2---|----2-------2---|
   |--------3-------|--------2-------|3---------------|0---------------|
   |----------------|3---------------|--------3-------|--------0-------|

C* is 332010, G is 32003x


Also I figured out that 234242 is F#oF#o7 so I can do lovely gospel waltzety cliché things like
C E7 F C
C Am Dm G7
C C7 F F#o7 
C G F C
Tags: guitar, music, tab
Subscribe
  • Post a new comment

    Error

    Anonymous comments are disabled in this journal

    default userpic

    Your reply will be screened

    Your IP address will be recorded 

  • 16 comments