Jason (jcreed) wrote,
Jason
jcreed

I am really digging this nice easy little guitar exercise pattern thingy lately: (due to this guy, whom I totally recommend if you are in the pittsburgh area and looking for guitar lessons)

 C       F   C/E          G/B      C       F   Am   G       C
 ----------------|------------0---|----------------|------------0---|
 --1-------1---1-|----------3---3-|--1-------1---1-|--0-------1---1-|
 -0-0-0-0-0-0-0-0|-0-0-0-0-0-0-0-0|-0-0-0-0-0-0-2-2|-0-0-0-0-0-0-0-0|
 ----0-2-3---2---|0-2---0---------|----0-2-3---2---|----------------|
 3---------------|----3---2-------|3---------------|----0-2-3-------|
 ----------------|----------------|----------------|3---------------|

 Fadd9   C        G                Fadd9   C        G       G7
 3---3-3-3---3-3-|3---------------|3---3-3-3---3-3-|3-------1-------|
 --1-------1-----|--0---0---------|--1-------1-----|--0---0---0-----|
 -2-2-0-0-0-0-0-0|-0-0-0-0-0-0-0-0|-2-2-0-0-0-0-0-0|-0-0-0-0-0-0-0-0|
 3---2-0---------|----0-----------|3---2-0---------|----0-----------|
 --------3---2-0-|----------0-2---|--------3---2-0-|------------0-2-|
 ----------------|3-------3-----3-|----------------|3-------3-------|

 C       F   C/E          G/B      C       F   Am   G       C
 ----------------|------------0---|----------------|------------0---|
 --1-------1---1-|----------3---3-|--1-------1---1-|--0-------1-1---|
 -0-0-0-0-0-0-0-0|-0-0-0-0-0-0-0-0|-0-0-0-0-0-0-2-2|-0-0-0-0-0-00---|
 ----0-2-3---2---|0-2---0---------|----0-2-3---2---|------------2---|
 3---------------|----3---2-------|3---------------|----0-2-3---3---|
 ----------------|----------------|----------------|3---------------|


(also here are MIDI and ABC and PDF files)
Tags: guitar, music, tab
Subscribe
  • Post a new comment

    Error

    Anonymous comments are disabled in this journal

    default userpic

    Your reply will be screened

    Your IP address will be recorded 

  • 3 comments