Jason (jcreed) wrote,
Jason
jcreed


Simple pleasant picking pattern:
CCFFGGCC
CCFFGGCC
AmAmCCAmAmCC7
FFGGCCGG

Where: (all rythms are quarter-eighth-eighth-quarter)
 C            F
 ------0-----|------1-----
 ----1-------|----1-------
 --------0---|--------2---
 ------------|------------
 3-----------|------------
 ------------|1-----------
 G                       
 ------3-----|
 ----0-------|
 --------0---|
 ------------|
 ------------|
 3-----------|

 Am           C7
 ------0-----|------0-----
 ----1-------|----1-------
 --------2---|--------3---
 ------------|------------
 0-----------|3-----------
 ------------|------------
Tags: guitar, music
Subscribe
  • Post a new comment

    Error

    Anonymous comments are disabled in this journal

    default userpic

    Your reply will be screened

    Your IP address will be recorded 

  • 1 comment