Jason (jcreed) wrote,
Jason
jcreed

GuitarBlog: Trying to practice hammer-ons and pull-offs and that kind of thing. Here is a measure of I piece I was working on writing (and now that I look, never really finished tidying up) back in like sophomore year of college, called "Amy's Here". Much easier to pull it off on the piano, but I'm almost able to get through it (i.e. this one measure) a couple of times on the guitar, if I play slowly.

0-----3---------
----1---0---3---
--0---0---0-5p0-
----------------
3---------------
----------------



|0-----3--------|0-----3--------|0-----3--------|0--------------|
|----1---0-3-1--|----1---0-3-1--|----1---0-5-0--|----1-3---1----|
|--0---0---0---0|--0---0---0---0|--0---0---0-5p0|--0---0---0-4p0|
|---------------|---------------|---------------|---------------|
|3--------------|3--------------|3--------------|3-------1------|
|---------------|---------------|---------------|---------------|
Subscribe
  • Post a new comment

    Error

    Anonymous comments are disabled in this journal

    default userpic

    Your reply will be screened

    Your IP address will be recorded 

  • 0 comments