August 27th, 2008

beartato phd

(no subject)

 ---------------------------------------------------------------
 3-------1-------0-------1------3-------1-------0-------1-------
 ----0-------0-------0-------0------2-------2-------2-------2---
 ---------------------------------3---3---3---3---3---3---3---3-
 --3---3---3---3---3---3---3---3--------------------------------
 ---------------------------------------------------------------
 Cadd9   C       Cmaj7   C      F6      F       F#11    F         
 --------------------------------------------------------------
 3-------1-------0-------1-------1-----------------------------
 ----0-------0-------0-------0-------0---0---0---0---0---0---0-
 --------------------------------------------------------------
 ----------------------------------3---3---3---3---3---3---3---
 --3---3---3---3---3---3---3---3-------------------------------
 G       Gsus4  G       Gsus4    C


capo 5, kind of bouncy and syncopated, the beat really comes on the second (sixth, tenth, etc.) note rather than the first (fifth, ninth, etc.) so that the high notes sound anticipatory.