Jason (jcreed) wrote,
Jason
jcreed

----------------------------------------------
----------------------------------------------
------8-----------------------8---------------
----10----10--------8-------10----10----8-----
8-11--------118-10------8-11--------118-----11
----------------------------------------------

----------------------------------------------
----------------------------------------------
------8-----------------------8---------------
----10----10--------8-------10----10--------8-
8-11--------118-10------8-11--------118---10--
----------------------------------------11----

Tags: guitar, music
Subscribe
  • Post a new comment

    Error

    Anonymous comments are disabled in this journal

    default userpic

    Your reply will be screened

    Your IP address will be recorded 

  • 4 comments