Jason (jcreed) wrote,
Jason
jcreed

Current Mood:

(~100bpm, this a few times:)
--------------------------------
--------------------------------
--------------------------------
--------7-5-------------5-------
5-5-x-5-----8-7-----------8-7---
----------------8-8-x-8-------8-
(then this:)
--------------------------------
--------------------------------
--------------------------------
--------------------------------
5-5-5-5-5-5-5-5/7-7-7-7-4-4-4-4-
6-6-6-6-6-6-6-6/8-8-8-8-5-5-5-5-
(then repeat.)
Tags: guitar, music
Subscribe
  • Post a new comment

    Error

    Anonymous comments are disabled in this journal

    default userpic

    Your reply will be screened

    Your IP address will be recorded 

  • 4 comments